Partitions

Attention ! ces partitions ne sont qu'un amas personnel de morceaux que j'aime jouer pour y avoir acces d'où je veux !
Elles sont en ligne mais ne passent pas au dessus des droits d'auteur si chers à nos amis !
Veillez à les respecter quand même un petit peu... si vous avez toutes fois un problème avec ces partitions contactez moi


Vous cherchez du papier à musique ? des partitions vierges ? c'est par ici : papier musique gratuit

Calvin Russell - down down down

Titre : Down Down Down
Artiste : Calvin Russell
Style : blues

mise en ligne le : 04/03/2009


écouter le morceau de cette partition écouter le titre
voir une vidéo de cette partition voir le titre en vidéo

DOWN,DOWN,DOWN
by Calvin Russell


intro:

----------------------------0--------------0-----------------------------
--------------------------0---------------1-1-------1-----1-----1--------
----------0-----0-------0--------0---0---2---2----2-----2------2-2-------
--------2-----2-------0---------2---2-----------------2-------2---2------
--0-2-3-----3-------2---------2----2---0--------0------------0------0----
------------------3------------------------------------------------------

couplet:
---------------------------3----------------------0--------------------
--------------1------------------------------------1-----1------1------
-------------0--0------------------------0------2---2---2-2----2-2-----
-----------2------2-----0---------------2-2----2-------2---2--2---2----
--0--2--3-------------2---------------2----2--0-------0------0-----0---
-------------------3------------3-2-0----------------------------------
i know it's been a hard road for so long now

-------------------------------------------------0----------------------------
----------1--------------0-------------------------1------1-------1-----------
---------2-------------------------------0------2----2---2-2-----2-2----------
--------3---------------0---------------2-2---2---------2---2---2---2---------
-------3---------------2--------------2----2-0--------0-------0------0--------
------1---------------3-------3--2--0-----------------------------------------
And it's taker you for a ride down down down but you must

----3-3----3---1-1-1-----0-----0----0-----0--3^0---2-----2-----3-3-3-0-1-1-----1
----0--0---0-0-0---0----0-----0------1----1--1-------1-----1---0-0-0---0---0----
----0------0---0---0---0-----0-----2--2---2--2---0-----2-----2-0-0-0---0-----0--
----0----0-----0------2-----2-----2-----2-2--2---0-----0-----0-0-0-0---0--------
----2----2-----2-----3-----2-----0------0-0--0-----------------2-2-2---2--------
----3----3-----3-----------------------------------------------3-3-3---3--------
laugh even though it seems that you should cry

---------------------------------------------0----3^0--2-2-2-2-----------
----1---1---4-4-----4-----3---3-----2---2-----1--------1-1-1-1-----------
--0--0---0--0---0----------0---0-----2---2-----0-------2-2-2-2-----------
--2---2-----2-----2---2-0----0----2---2----2-----------0-0-0-0-----------
--3---------------------2---------0--------0-----------------------------
-------------------------------------------------------------------------

--3-3-3-3-3-3--2-2-2-2--3-3--2---
--1-1-1-1-1-1--1-1-1-1--1-1--1---
--2-2-2-2-2-2--2-2-2-2--2-2--2---
--0-0-0-0-0-0--0-0-0-0--0-0--0---
---------------------------------
---------------------------------

--2-------------------3-------------------0------------------------
--1----1------------------------------1-1---1----1--3-3-3-3-3--1---
--2---0-0------------------------0-0--2-2---2---2---2-2-2-2-2--2---
--0--2---2---------0-------------2-2--2-2---2--2----2-2-2-2-2--2---
----3-------------2--------------2-2--0-0---0-0-----0-0-0-0-0--0---
-----------------3-----------3-2-0-0-------------------------------
Each morning brings us a different day

--------------------3------------------0----------------------------
--------------------0-------------------1--1-1--3-3-3-3--1----------
----------2--------------------------2---2-2-2--2-2-2-2--2----------
---------3-------0--------------2---2------2-2--2-2-2-2--2----------
--------3-------2---------------2--0-------0-0--0-0-0-0--0----------
-------1-------3------------3-2-0-----------------------------------
And it's counting our lives down down down but you must try

3-3------3--1-1-1-----0----0----0-------0-3^0-2-2-2-2-2--3-3---3-3-3-3--3-3-3--3
0---0---0-0-0---0----0----0-------1-----1-1---1-1-1-1-1--3--3--3-3-3-3--1-1-1--0
0------0----0---0---0----0----2----2----2-2---2-2-2-2-2--0-----0-0-0-0--0-0-0--0
0----0------0------2----2----2----------2-2---0-0-0-0-0--0-----0-0-0-0--0-0-0--0
2----2------2-----3----2----0--------0--0-0--------------2-----2-2-2-2----------
3----3------3--------------------------------------------3-----3-3-3-3----------
until at last you'll know why

---------------------------------------------------------2--2--2--------2
1-1-1-1-1-1--1---------------1-1-1-1-1-1-----------------1--1--1---------
0-0-0-0-0-0--0--0-0-0-0-0----2-2-2-2-2-2-----------------2--2--2----2----
2-2-2-2-2-2--2--2-2-2-2-2----2-2-2-2-2-2-----------------0--0--0--0------
3-3-3-3-3-3--2--2-2-2-2-2----0-0-0-0-0-0---------------------------------
----------------0-0-0-0-0------------------------------------------------
A grain of sand one single leaf a candle by itself burning

----------------------------------------------2-2-2--3--3-3-3-3--2-2-2-2--3-3--2
1-1-1-1-1-1--1-------------1-1-1-1-1-1--------1-1-1--1--1-1-1-1--1-1-1-1--1-1--1
0-0-0-0-0-0--0-------------2-2-2-2-2-2--------2-2-2--2--2-2-2-2--2-2-2-2--2-2--2
2-2-2-2-2-2--2--2-2-2-2-2--2-2-2-2-2-2--------0-0-0--0--0-0-0-0--0-0-0-0--0-0--0
3-3-3-3-3-3--2--2-2-2-2-2--0-0-0-0-0-0------------------------------------------
----------------0-0-0-0-0-------------------------------------------------------
I'm just a man only a man and the rules of life I'm still learning

------------------------------------3-3-------3-3-------------
------------1--0--1-1-1-1-----0-0---0-0-------0-0------1--1---
----0-0-----0--0--0-0-0-0-----0-0---0-0-------0-0---0--0--3---
---2---2--2----2--2-2-2-2--0--0-0-------0-0-------0-2--2--2---
--3-----3------3--3-3-3-3--2------------2-----------3--3------
---------------------------3------3-----3---3-----------------
Turn me round, turn me round well people for years

2-2-2-2-2----3-3-3--
3-3-3-3-3----0-0-0--
2-2-2-2-2----0-0-0--
0-0-0-0-0-0--0-0-0--
----------2--2-2-2--
----------3--3-3-3--
I gathered the tears


---------------------------3-3-3-3----
------1----1------1--------0-0-0-0----
------0----0------0--------0-0-0-0----
------2----2------2----0-----------0--
------3----3------3----2-----------2--
-----------------------3-----------3--
I looked for the fawns on your faces.


-----------------------------2--2--2--2---------3---
-------1--1--1--1--1---------3--3--3--3-------------
-------0--0--0--0--0---------2--2--2--2-------0-----
-------2--2--2--2--2---------0--0--0--0---0--0------
-------3--3--3--3--3----------------------2---------
------------------------------------------3---------
Now I walk down the street the people I meet


--------------------------------------------------------
---1--1--1--1----------------0--0--0----1-1-1-1--0------
---0--0--0--0----------------0--0--0----0-0-0-0--0------
---2--2--2--2----------0----------------2-2-2-2--0------
---3--3--3--3----------2----------------3-3-3-3--2------
-----------------------3-------------------------3------
One by one I've met thousands


-----------------------------------0-----------0----------0------0-
-------------1-1-1^0----0------------0---0------1----1---------2---
-------------0-0-0---0-----------0----0----2-2----2---------0------
-------------2-2-2----2------2-2-------0---2-------2----2----2-----
-------------3-3-3---------3-2-------------0------------0----------
-----------------------------0-------------------------------------
And that's why that I feel that you give it's the fruit


------------------2-2--0--0--2--0--2-2--3--2---
------------------1-1--1--3--1--1--1-1--1--1---
------------------2-2--2--2--2--2--2-2--2--2---
------------------0-0--0--0--0--0--0-0--0--0---
-----------------------------------------------
-----------------------------------------------
The fruit of living


----------3-3-3-3--1-1----1----------------------------------------------0----
----------0-0-0-0--0---0-------1---1---4-4-----4---3----3-----2---2-------1--1
----------0-0-0-0--0----0----0--0---0--0---0---------0----0-----2---2------0-2
----------0--------0---------2---2-----2-----2----2---0------2---2-----2-----2
----------2--------2---------3--------------------0----------0---------0-----0
----------3--------3----------------------------------------------------------
Our lives


--2-2---3/5--3---
--1-1---1----0---
--2-2---2----0---
--0-0---0----0---
-------------2---
-------------3---